• ↓
  • ↑
  • ⇑
 
Записи с темой: табы (список заголовков)
04:05 

Айрэ и Саруман, "Игра престолов"

Lindford
Сварливая задница


Ритм-гитара держит постоянный ритм в течении всей песни, а соло-гитара вступает после Интро,
в начале PART ONE.

Добавьте бендов, слайдов и прочих приемов соло-гитаре, чтоб получить более интересный звук.

Структура:

INTRO

PART ONE - First Variation
PART ONE - A (Second Variation)
PART ONE - B (Third Variation)

PART TWO - First Variation
PART TWO - Second Variation
читать дальше

Аккорды:

INTRO: Cm / Cm / Cm / Cm
Cm / Cm / Cm / Cm

PART ONE: Cm / Cm / Cm / Cm
A Gm / Gm / Gm / Gm
A# / A# / A# / A#
Fm / Fm / Fm / Fm

PART ONE: Cm / Cm / Cm / Cm
B Gm / Gm / Gm / Gm
x2 A# / A# / A# / A#
Cm / Cm / Cm / Cm

PART TWO: G# / G# / D# / D#
x2 Fm / Fm / Cm / Cm
G# / G# / Fm7/ G
Cm / Cm / Cm / Cm


запись создана: 01.08.2011 в 08:09

@темы: Табы, Ответ на Запрос, Звуковой Пример, Аккорды, Айрэ и Саруман

16:38 

флер, страна ОЗ и еще кто-то

Эрсай
"Мысли свободны от пошлины? " - Да, если они не переходят границы.
разыскиваю аккорды или табы или и то, и другое))), а так же ноты к партиям флейты к песням группы Флер (Fleur):

орех
Качели
Апрельское утро
Зов маяка

Кома
Дирижабли
Я уснула в камере пыток
Розовый слон
Прозрачный человек
Маленькие пушистые смерти
Камень

а так же песни страны ОЗ и еще кого-то:
Прыгай вниз
Ведьма
Я неверная жена, а он неверный муж

а может кому-то сильно нечем заняться этим летом и подбор как-то разнообразит монотонные будни?))

@темы: Ноты, Запрос, Аккорды, Информация, Табы

19:20 

Мельница "Овечка"

~Вольный Ветер~
Добрый день!
ищу табулатуру к Мельнице "Овечка"
не хочется играть стандартным перебором )



@темы: Запрос, Звуковой Пример, Мельница, Табы

19:07 

Табулатуры Рокового Направления

Delgado
Топор войны надо зарывать только вместе с врагом!
Всем привет!
Коллекционирую табулатуры рокового направления для акустической гитары. Буду признателен за любую помощь!

@темы: Информация, Запрос, Табы

13:48 

Из фильма "Фрида"

tra-ta-ta
пой-me
Быть может, кто-то встречал аккорды/табы к танго, исполненном в фильме "Фрида"

видео


@темы: Табы, Звуковой Пример, Аккорды, Запрос, из фильмов

16:35 

Маша Badda Boo - Мне нужен повод

Ро Де Фокс
Злая ведьма неизвестно чего
Первый вариант:
| Fm# | D | A | E |
Второй вариант:
Gm D# B F
|---------3------3-------6--------6-------6--------6------8--------8--
|---------3-------3-------8--------8-------6--------6-----10------10
|---------3-------3-------8--------8-------7--------7------10------10
|--------------------------------------------------------------------------
|-----------------------6-------6-----------------------8---------8-------
|---3---------3--------------------------6--------6--------------------


Сегодня некуда спешить,
Какое совпаденье
Это значит целый день
Я могу с тобой прожить
Курить и кофе пить
До одуренья
В болтовне искать спасенья
Но в молчанье находить

R:
Мне нужен повод
Мне нужен повод рвать
Телефонный провод
Кричать, соседям мешать спать
Друг другу шептать про любовь,
не вставать
про любовь,
не вставать
читать дальше


запись создана: 17.09.2010 в 02:33

@темы: Табы, Ответ на Запрос, Маша Badda Boo, Звуковой Пример, Аккорды

21:50 

Muse - Unintended

Аккорды

@настроение: Разбираем старые завалы....

@темы: Muse, Аккорды, Ответ на Запрос, Табы

22:04 

Ищется табулатура

Арамис
Между Бахом и шарманщиком кто-то тоже должен быть. (С)
Ищется табулатура (в крайнем-кранем случае - ноты) известнейшей песни "Чёрный ворон" (тот, который вьётся, а не тот, что переехал маленькую жизнь).
Подчёркиваю - аккорды не нужны - нужна мелодичная табулатура.

@темы: Табы, Ответ на Запрос, Ноты, Народное творчество, Запрос

18:40 

Нино Катамадзе - once on the street

Аккорды
14:46 

Нужны табы (см. видео)

Арамис
Между Бахом и шарманщиком кто-то тоже должен быть. (С)
В интернете табов этих нет. Есть один сайт, где их предложили купить, но это, вроде, был лохотрон - никто там никогда ничего не покупал. Исполнитель отказывается давать табы кому бы то ни было, даже за деньги. Пробовал подобрать сам - где-то я что-то упускаю, не получается, даже снять с видео.



У этого исполнителя есть серия таких видео на том же ресурсе, с разными композициями. Мне, в принципе, нужны они все :) , но на данный момент мне бы хотя бы эту найти. Есть кто-нибудь, кому по силам это снять или подобрать?

@темы: Ответ на Запрос, Ноты, Звуковой Пример, Запрос, Табы

19:45 

Уровень жизни - Прости

M_O_O_N
Ответ на запрос M_O_O_N

Am F
Мне хочется плакать, мне хочется выть,
C G
Я начал понимать, что не могу тебя забыть.
Ты ушла от меня, захлопнув дверь за собой,
Мне страшно одному и я хочу быть с тобой.

читать дальше
------------------------------------------------------------------------------
Табы


@темы: Ответ на Запрос, Аккорды, Табы, Уровень Жизни

22:54 

А-Мега >>> Лететь

Yarda
....Ик....
Cm Gm F(V) D#(III)
Однажды он сказал: "Твой полет - всего лишь сон"
Cm Gm F(V) D#(III)
И ты летать не стал - стал таким, как он
И по земле ходить наyчился как pебенок ты
Hо все не мог забыть той пpозpачной высоты

Var.1~~~~~Подобрано Найденовым Евгением.

— — — — — — — — — — — — — — — — — — — —


Am Em D C
Однажды он сказал: "Твой полет - всего лишь сон"
Am Em D C
И ты летать не стал - стал таким, как он
И по земле ходить наyчился как pебенок ты
Hо все не мог забыть той пpозpачной высоты

Var.2 взято из Fido

Источник: www.akkords.ru/ru/song/8/

@темы: А-Мега, Аккорды, Табы

23:52 

Bic Runda - Sway

Yarda
....Ик....
Ответ на запрос катя атя.

Intro

e|------------------------------------------------------------|e
b|------------------------------------------------------------|b
g|-----2--1--2-----2--1--2-----2--1--2-----2--1--2-----|g
d|--0-----------2-----------0--------------2----------------|d
a|------------------------------------------------------------|a
D|------------------------------------------------------------|D


читать дальше

@темы: Bic Runga, Ответ на Запрос, Табы

23:25 

Ю. Визбор - Милая моя (Табы)

Yarda
....Ик....
Ответ на запроc Тайлин

E||------------------------||-------------3--2--0--|----------------------|
B||--0--0--0--0--0--0--||---0--0--0------------|--0-------------------|
G||--0--------2----------||*--0-------------------|-----0--0-----2--2--|
D||--2--------1----------||*--2-------------------|-----2--2-----1--1--|
A||-----------------------||------------------------|-----------------------|
E||--0--------2----------||---3-------------------|--0--------0----------|


читать дальше


@темы: Ответ на Запрос, Визбор, Табы

00:05 

Бумбокс - Квіти в волоссі

Котярсис
верните меч, коня и латы, мой замок тянущийся ввысь, а кто там ржет в углу палаты - заткнись
Ответ на запрос morning jazz


E||-------------------------|------------------------|
H||-------------------------|----------------7-------|
G||*------------------------|-------------------7----|
D||*-----4-----0-------4-- |-----4-----0-----------|
A||---2-----2-------2------|--1-----1--------------|
E||------------------------- |------------------------|

читать дальше

@темы: Ответ на Запрос, Бумбокс, Табы

13:50 

У кого есть табулатуры Miyavi?? или инфа о технике игры его

@темы: Запрос, Miyavi, Табы, Перебор/Бой

08:23 

Metallica - Nothing else matters

Будущее еще не предопределено (с)
И табулатура и аккорды :)

E|-------0-----|-------0-----|-------0-----|-------0---7-------|
B|-----0---0---|-----0---0---|-----0---0---|-----0---0---------|
G|---0-------0-|---0-------0-|---0-------0-|---0---------------|
D|-------------|-------------|-------------|-------------------|
A|-------------|-------------|-------------|-------------------|
E|-0-----------|-0-----------|-0-----------|-0-----------------|
P (9/8 time) Н P S S P
E|-7-----------7^0---------|---------7---8---7^8^7\5-7---5\2^0-|
B|-----0-----------0-------|---------0---0-----------0---------|
G|---------0-----------0---|-----0-----------------------------|
D|-------------------------|-----------------------------------|
A|-------------------------|-----------------------------------|
E|-0-----------------------|-0---------------------------------|
P
E|-------------2^0---------|-------------0---0---0-------------|
B|-5-------5-------5-------|---------5-------5---5-------------|
G|-----5---------------5---|-----5-----------5---5-------------|
D|-------------------------|-----------------------------------|
A|-0-----------------------|-0---------------0---2-------------|
E|-------------------------|-----------------------------------|
P Н P P Н
E|-0-----------3^0-----0---|-0-----------0^5^0-----------------|
B|-5-------5-------5---5---|-7-------7---------7^0-0^5---------|
G|-5-----5---5-------5-5---|-7-----7---7-----------------------|
D|-------------------------|-----------------------------------|
A|-3---3---------------3---|-5---5-----------------------------|
E|-------------------------|-----------------------------------|
<.NH.>
E|-------12----|-------0-----|-------0-----|-------0-----------|
B|-----12--0---|-----0---0---|-----0---0---|-----0---0---------|
G|---12------0-|---0-------0-|---0-------0-|---0-------0-------|
D|-------------|-------------|-------------|-------------------|
A|-------------|-------------|-------------|-------------------|
E|-0-----------|-0-----------|-0-----------|-0-----------------|

E|-------------7-----------|-------------|-------------7-------|
B|-------------8-----------|-----7-----5-|-------------8-------|
G|-----------9-------------|-----7-----5-|-----------9---------|
D|---------9---------------|---7-----5---|---------9-----------|
A|-------7-----------------|-5-----3-----|-------7-------------|
E|-0-----------------------|-------------|-0-------------------|

E|-------------|-------------7-------|-----5-----------3-----|
B|-----7-----5-|-------------8-------|-------7-----------5---|
G|-----7-----5-|---------9-----------|---------7-----------5-|
D|---7-----5---|-----------9---------|-----7-----------5-----|
A|-5-----3-----|-------7-------------|-5-----------3---------|
E|-------------|-0-------------------|-----------------------|

E|-----3-----------2-------|-------0-----|-------0-----|
B|-------3-----------4-----|-----0---0---|-----0---0---|
G|---------4-----------2---|---0-------0-|---0-------0-|
D|-----5-----------4-------|-------------|-------------|
A|-------------2-----------|-------------|-------------|
E|-3-----------------------|-0-----------|-0-----------|

Main guitar part:
E|-------------3-----0-----|-2-----3-----0-----------|
B|---------0-----------0---|---------3-------3-------|
G|-----0-----------0-----0-|-----------0-------0-----|
D|-------------------------|-0-----------------------|
A|-------------------------|-------------3-----------|
E|-0-----------------------|---------------------3-2-|

E|-------------3-----0-----|-2-----------------------|
B|---------0-----------0---|-------3-----3-----------|
G|-----0-----------0-----0-|---------2-------0-------|
D|-------------------------|-0-----------------------|
A|-------------------------|-------------3-----------|
E|-0-----------------------|---------------------3-2-|

E|-------------3-----0-----|-2-----3-----3---------|
B|---------0-----------0---|---------3-------3-----|
G|-----0-----------0-----0-|-----------0---------0-|
D|-------------------------|-0---------------------|
A|-------------------------|-------------3---------|
E|-0-----------------------|-----------------------|

E|---------3---2-----2--|-0-----0-----|-------------0----------|
B|---------3---0-----0--|-0---0---0---|---------0-------0------|
G|-----0-------2-----2--|---0-------0-|-----0------------------|
D|----------------------|-------------|------------------------|
A|-------------2-----2--|-------------|------------------------|
E|-3--------------------|-0-----------|-0------------------3-2-|

Припев: guitar part
1 2 3 4 5 6
E|-------------|-2-----2-2-2-3---2-0-0-2-|
B|-1-----2-----|-3-----3-3-3-3---3-3-3-3-|
G|-0-----2-----|-2-----2-2-2-2---2-2-2-2-|
D|-2-----2-----|-0-----0-0-0-0---0-0-0-0-|
A|-3-----0-----|-------------------------|
E|-------------|-------------------------|

E|-------------|-2-----2-2-2-3---2-0-0-2-|
B|-1-----2-----|-3-----3-3-3-3---3-3-3-3-|
G|-0-----2-----|-2-----2-2-2-2---2-2-2-2-|
D|-2-----2-----|-0-----0-0-0-0---0-0-0-0-|
A|-3-----0-----|-------------------------|
E|-------------|-------------------------|

E|-------------|-2-----2-2-2-0-|
B|-1-----2-----|-3-----3-3-3-0-|
G|-0-----2-----|-2-----2-2-2-0-|
D|-2-----2-----|-0-----0-0-0-2-|
A|-3-----0-----|-------------2-|
E|-------------|-------------0-|

Interlude, only one part is notated.

E|-12----14---|-15---17---|-8-----8-----|-----8-----|0-----0---|
B|---12----12-|---12---12-|---5-----5---|---5---5---|--1-----1-|
G|------------|-----------|-----5-----5-|-5-------5-|----0-----|
D|------------|-----------|-------------|-----------|----------|
A|------------|-----------|-------------|-----------|----------|
E|------------|-----------|-------------|-----------|----------|

E|-0-------0---|-0-0---------0-0---------|-------0-----|
B|---3-------3-|-----0-----------0-------|-----0---0---|
G|-----2-------|---------0-----------0---|---0-------0-|
D|-------------|-------------------------|-------------|
A|-------------|-------------------------|-------------|
E|-------------|-------------------------|-------------|

Guitar solo :
E5 E5(VII) | D5(V) C5(III)
E5 E5(VII) | D5(V) C5(III)
E5 E5(VII) | D5(V) C5(III) | G5(III) B5(II) | E5

B B R V V
E|---------------------------|---------------------------------|
B|-15------15----------------|---------------------------------|
G|-14(16)--14(16)14-12----12-|-11-12-11----11---------12-14-12-|
D|---------------------------|----------14----12-14------------|
A|---------------------------|---------------------------------|
E|---------------------------|---------------------------------|
B B B R V
E|-------12-------12------------------|------------------------|
G|----12-------12----15-12----12------|------------14-14-13----|
G|-14(16)---14(16)---------15----15-14|-12(14)12---14-14-13-12-|
D|------------------------------------|---------14-------------|
A|------------------------------------|------------------------|
E|------------------------------------|------------------------|
S Н P S V
E|-/15-14----15-14-17-|-15-14^15^14\12----15-14-|--------------|
B|--------12----------|----------------12-------|-12-----------|
G|--------------------|-------------------------|-----12-14-12-|
D|--------------------|-------------------------|--------------|
A|--------------------|-------------------------|--------------|
E|--------------------|-------------------------|--------------|
B R B B R P B
E|-------------------------|-12--------------------------|
B|-15-------------------12-|-------15-15(17)15^12-15(17)-|
G|-14(16)14-12----12-14(16)|-----------------------------|
D|-------------14----------|-----------------------------|
A|-------------------------|-----------------------------|
E|-------------------------|-----------------------------|
Н P S Н P
E|-----------------|--------|
B|-12^15^12\\\\\\7-|-5^7^5--|
G|-----------------|--------|
D|-----------------|--------|
A|-----------------|--------|
E|-----------------|--------|

The end:

E|-0-----0-----|-------0---7-|-7-----------7^0-------|
B|-----0---0---|-----0---0---|-----0-----------0-----|
G|---0-------0-|---0---------|---------0-----------0-|
D|-------------|-------------|-----------------------|
A|-------------|-------------|-----------------------|
E|-0-----------|-0-----------|-0---------------------|

E|---------7---8---7^8^7\5--7---5\2--0-|
B|---------0---0------------0----------|
G|-----0-------------------------------|
D|-------------------------------------|
A|-------------------------------------|
E|-0-----------------------------------|

Em D C
So close no matter how far
Couldn't be much more from the heart
Forever trusting who we are
G Н7 Em
And nothing else matters

Em D C
Never opened my self this way
Life is ours, we live it our way
All these words I don't just say
G Н7 Em
And nothing else matters

Em D
Trust I seek and find in you
Every day for us something new
Open mind for a different view
G Н7 Em
And nothing else matters

{Начало припева}
C A D C
Never cared for what they do
A D C
Never cared for what they know
A D Em
But I know
{конец припева}

{Повторить первый куплет}
{припев}
{Повторить первый и второй куплеты}

C A D C
Never cared for what they say
A D C
Never cared for what they play

A D C
Never cared for what they do

A D C
Never cared for what they know

A D Em
But I know

@музыка: Дельфин - Облака

@настроение: Normal

@темы: Табы, Аккорды, Metallica

11:03 

Каталог

В этом посте будет постоянно обновляться каталог имеющихся на нашем сообществе песен.



Рус
А
Агата Кристи - Грязь
Агата кристи - Как на войне
Агата Кристи - Ковёр-вертолёт
Агата Кристи - Четыре слова про любовь
Александр Барыкин - Ночь голубая тайна
Алиса - Веретено
Алиса - Трасса Е-95
Ария - Закат

Б
Би-2 - Достучаться до небес
Би-2 - Мой Рок-н-ролл
Би-2 - Она
Браво - Дорога в облака
Бутусов - Девушка по городу

Д
ДДТ - Что такое Осень

К
Крематорий - Безобразная Эльза
Крематорий - Таня
Крематорий - Я тихо и скромно
Вадим Курылёв - За острый край

Л
Люмен - Бабочки

М
Мара - Самолеты
Мастер - Пепел на ветру
Мельница - Королевна
Мельница - Ночная Кобыла
Мельница - Рапунцель
Менестрель Тэм - Песня эгоистов, идущих в рай
Менестрель Тэм - Я иду за тобой
Морийский Гоблин - Все идет по плану

Н
Наутилус Помпилиус - Крылья


П
Пилот - Сегодняшним днем

С
Сектор Газа - Вальпургиева Ночь
Сектор Газа - Лирика
Сектор Газовой Атаки - Память о Друге
Cплин - Мое сердце

Х
Хельга и Вики - Веселый Роджер

Й
Йовин - Спящая красавица

Eng
A
Animal Jazz - Три полоски

B
Blue System - Sorry little Sarah

F
Fleur - Уходи Февраль

M
Metallica - Nothing else matters

S
Scorpions - You and I

T
The Cat Empire - No Longer There

@темы: Табы, Информация, Аккорды

04:22 

Просьбы/ запросы

Аккорды
В этой теме оставляем ваши просьбы найти/подобрать аккорды для той или иной песни.

А для "знающих" людей это способ сделать доброе дело, ответив на наши с вами просьбы.

@темы: Табы, Запрос, Аккорды

Аккорды для Гитары

главная