Ознакомьтесь с нашей политикой обработки персональных данных
16:35 

Маша Badda Boo - Мне нужен повод

Ро Де Фокс
Злая ведьма неизвестно чего
Первый вариант:
| Fm# | D | A | E |
Второй вариант:
Gm D# B F
|---------3------3-------6--------6-------6--------6------8--------8--
|---------3-------3-------8--------8-------6--------6-----10------10
|---------3-------3-------8--------8-------7--------7------10------10
|--------------------------------------------------------------------------
|-----------------------6-------6-----------------------8---------8-------
|---3---------3--------------------------6--------6--------------------


Сегодня некуда спешить,
Какое совпаденье
Это значит целый день
Я могу с тобой прожить
Курить и кофе пить
До одуренья
В болтовне искать спасенья
Но в молчанье находить

R:
Мне нужен повод
Мне нужен повод рвать
Телефонный провод
Кричать, соседям мешать спать
Друг другу шептать про любовь,
не вставать
про любовь,
не вставать
читать дальше


запись создана: 17.09.2010 в 02:33

@темы: Табы, Ответ на Запрос, Маша Badda Boo, Звуковой Пример, Аккорды

Комментарии
2010-09-17 в 16:53 

Аккорды
Мне нужен повод

Первый вариант:
| Fm# | D | A | E |
Второй вариант:
Gm D# B F
|---------3------3-------6--------6-------6--------6------8--------8--
|---------3-------3-------8--------8-------6--------6-----10------10
|---------3-------3-------8--------8-------7--------7------10------10
|--------------------------------------------------------------------------
|-----------------------6-------6-----------------------8---------8-------
|---3---------3--------------------------6--------6--------------------


Сегодня некуда спешить,
Какое совпаденье
Это значит целый день
Я могу с тобой прожить
Курить и кофе пить
До одуренья
В болтовне искать спасенья
Но в молчанье находить

R:
Мне нужен повод
Мне нужен повод рвать
Телефонный провод
Кричать, соседям мешать спать
Друг другу шептать про любовь,
не вставать
про любовь,
не вставать

Ты так прекрасен но один
И я прелестная особа
И круто смотримся мы оба
В зеркалах витрин
И миллион причин
Прожить с тобой до гроба
Но ни одной причины чтобы
Полюбить, мой господин

R.

Мне нравится что вы больны не мной
А я не вами
И солнца нет у нас над головами
Не со мной
Мне нужен повод….

URL
2010-09-17 в 16:55 

Аккорды
Аккорды к Чаю
Am C
G E7
Am F
E7
Am G
Am G
C G C
Am E7/
Пр.: Am G C
Dm Am
На кружится.. Am C G Am
Am F C Am
Dm E7

Здравствуй, входи, садись,
Дверь закрывай, не стой.
Чай будет не простой
Передай по кругу другу.

Чай будет из травы,
Собранной в тех краях,
Где ангелы на полях
Поют так прилежно, нежно.

Собранный в тех краях,
Где девочки без проблем
В юбочках до колен
Играют на грядках в прятки.

Чай будет из семян
Собранных с перьев птиц,
Летящих с чужих границ
Сквозь сахарный звон в свой дом.

Чай – чай, выручай
Волшебство пришло – встречай.
Чай – чай, выручай
Волшебство пришло – встречай.

Чай будет на закат,
Чай будет на восход
И время пойдет назад,
А, хочешь, вперед пойдет.
Чай это ты и я
Вместе мы или врозь,
Чай это мы насквозь
С корицей и перцем сердце.

Кружится – вертится чаинка на донышке
Горячие руки, горячие головы,
Душистые листья, волшебные зернышки
И в сказку поверится всем, кто попробовал.

Чай – чай, выручай
Волшебство пришло – встречай.
Чай – чай, выручай
Волшебство пришло – встречай.

Иван-чай, Иван да Марья,
Давай заварим, давай заварим.
Доставай из кармашка лесную ромашку
Дикий цветочек, Всем по глоточку хватит…

URL
2010-09-17 в 16:58 

Аккорды
Колыбельная вроде так: Fm# D A E

URL
2010-09-17 в 21:23 

Ро Де Фокс
Злая ведьма неизвестно чего
Спасибо большое!

2010-10-27 в 18:52 

Аккорды
Эх, надо будет собраться и выложить это отдельными записями)

URL
2011-01-19 в 16:56 

tra-ta-ta
пой-me
Ой спасибо, давно хотел научиться играть эту песню))

   

Аккорды для Гитары

главная