04:05 

Айрэ и Саруман, "Игра престолов"

Lindford
Сварливая задница


Ритм-гитара держит постоянный ритм в течении всей песни, а соло-гитара вступает после Интро,
в начале PART ONE.

Добавьте бендов, слайдов и прочих приемов соло-гитаре, чтоб получить более интересный звук.

Структура:

INTRO

PART ONE - First Variation
PART ONE - A (Second Variation)
PART ONE - B (Third Variation)

PART TWO - First Variation
PART TWO - Second Variation

OUTRO

Соло-гитара:

PART ONE: First Variation

----------------|---------------|------------------|-----------------|-----|
----------------|---------------|------------------|-----------------|-----|
----------------|---------------|------------------|-----------------|-----|
----------------|---------------|------------------|-----------------|-----|
--10------------|---------------|--6--8--10--------|-----------6--8--|--5--|
----------------|--8------------|------------------|--8--------------|-----|

-------|---------------|-----------------|---------------|-----------------|
-------|---------------|-----------------|---------------|-----------------|
-------|---------------|-----------------|---------------|-----------------|
-------|---------------|-----------------|---------------|-----------------|
--8----|---------------|--5--6--8--------|---------------|--6--5-----------|
-------|--6------------|-----------------|--6------------|--------8--------|

PART ONE: A (Second Variation)

---------|--------------|------------------|-------------------|----------|
--8------|--------------|---------8--------|-------------------|----------|
---------|--------------|--8--10-----------|------------8--10--|--7-------|
---------|--10----------|------------------|--10---------------|----------|
---------|--------------|------------------|-------------------|----------|
---------|--------------|------------------|-------------------|----------|

---------|--------------|------------------|----------------|--------------|
---------|--------------|------------------|----------------|--------------|
--10-----|--------------|--7--8--10-----|---------------|-8--7---------|
---------|--8-----------|------------------|--8------------|-------10-----|
---------|--------------|------------------|----------------|--------------|
---------|--------------|------------------|----------------|--------------|

PART ONE: B (Third Variation)

---------|--------------|------------------|-------------------|----------|
--8------|--------------|---------8--------|-------------------|----------|
---------|--------------|--8--10-----------|------------8--10--|--7-------|
---------|--10----------|------------------|--10---------------|----------|
---------|--------------|------------------|-------------------|----------|
---------|--------------|------------------|-------------------|----------|

---------|--------------|------------------|----------------|--------------|
---------|--------------|------------------|----------------|--------------|
--10-----|--------------|--7------8--------|--7-------------|--------------|
---------|--8-----------|------------------|-----------8----|---10---------|
---------|--------------|------------------|----------------|--------------|
---------|--------------|------------------|----------------|--------------|

PART TWO: First Variation

------|-----------------|---------------|----------------|---------------|
------|-----------------|---------------|----------------|---------------|
------|-----------------|---------------|----------------|---------------|
10----|-----------10----|--8------------|-----------8----|---------------|
------|-----------------|---------------|----------------|---------------|
------|-----------------|---------------|----------------|--8------------|

----------------|----------------|---------------|---------------|
----------------|----------------|---------------|---------------|
----------------|----------------|---------------|---------------|
----------------|----------------|---------------|---------------|
----------------|--10------------|---------------|---------------|
-----------8----|----------------|---------------|--4------------|

----------------|---------------|---------------|----------------|
----------------|---------------|---------------|----------------|
----------------|---------------|---------------|----------------|
----------------|---------------|---------------|----------------|
----------------|--6------------|--8------------|--10------------|
-----------4----|---------------|---------------|----------------|

PART TWO: Second Variation

------|-----------------|---------------|----------------|---------------|
------|-----------------|---------------|----------------|---------------|
------|-----------------|---------------|----------------|---------------|
10----|-----------------|--8------------|----------------|---------------|
------|-----------------|---------------|----------------|---------------|
------|-----------------|---------------|----------------|--8------------|

----------------|----------------|---------------|---------------|
----------------|----------------|---------------|---------------|
----------------|----------------|---------------|---------------|
----------------|----------------|---------------|---------------|
----------------|----------------|---------------|---------------|
-----------8----|----------------|---------------|--4------------|

----------------|---------------|---------------|----------------|
----------------|---------------|---------------|----------------|
----------------|---------------|---------------|----------------|
----------------|---------------|---------------|----------------|
----------------|--6------------|--5------------|----------------|
----------------|---------------|---------------|--8-------------|

Ритм-гитара:

INTRO:

Cm
E||------------------|------------------|------------------|----------------|
B||--1---------------|--1---------------|--1---------------|--1-------------|
G||---------------0--|---------------0--|---------------0--|-------------0--|
D||------------1-----|------------1-----|------------1-----|----------1-----|
A||-------3----------|-------3----------|-------3----------|-------3--------|
E||------------------|------------------|------------------|----------------|

C
E||------------------|------------------|------------------|----------------|
B||--1---------------|--1---------------|--1---------------|--1-------------|
G||---------------0--|---------------0--|---------------0--|-------------0--|
D||------------2-----|------------2-----|------------2-----|----------2-----|
A||-------3----------|-------3----------|-------3----------|-------3--------|
E||------------------|------------------|------------------|----------------|

Part One: A

Cm
------------------|------------------|------------------|------------------|
--1---------------|--1---------------|--1---------------|--1---------------|
---------------0--|---------------0--|---------------0--|---------------0--|
------------1-----|------------1-----|------------1-----|------------1-----|
-------3----------|-------3----------|-------3----------|-------3----------|
------------------|------------------|------------------|------------------|

Gm
------------------|------------------|------------------|------------------|
------------------|------------------|------------------|------------------|
--0---------------|--0---------------|--0---------------|--0---------------|
---------------0--|---------------0--|---------------0--|---------------0--|
------------1-----|------------1-----|------------1-----|------------1-----|
-------3----------|-------3----------|-------3----------|-------3----------|

A#
------------------|------------------|------------------|------------------|
------------------|------------------|------------------|------------------|
--3---------------|--3---------------|--3---------------|--3---------------|
------------0--3--|------------0--3--|------------0--3--|------------0--3--|
-------1----------|-------1----------|-------1----------|-------1----------|
------------------|------------------|------------------|------------------|

Fm
------------------|------------------|------------------|------------------|
------------------|------------------|------------------|------------------|
------------------|------------------|------------------|------------------|
--3---------------|--3---------------|--3---------------|--3---------------|
---------------3--|---------------3--|---------------3--|---------------3--|
-------1----4-----|-------1----4-----|-------1----4-----|-------1----4-----|

Part One: B x 2

Cm
------------------|------------------|------------------|------------------|
--1---------------|--1---------------|--1---------------|--1---------------|
---------------0--|---------------0--|---------------0--|---------------0--|
------------1-----|------------1-----|------------1-----|------------1-----|
-------3----------|-------3----------|-------3----------|-------3----------|
------------------|------------------|------------------|------------------|

Gm
------------------|------------------|------------------|------------------|
------------------|------------------|------------------|------------------|
--0---------------|--0---------------|--0---------------|--0---------------|
---------------0--|---------------0--|---------------0--|---------------0--|
------------1-----|------------1-----|------------1-----|------------1-----|
-------3----------|-------3----------|-------3----------|-------3----------|

A#
------------------|------------------|------------------|------------------|
------------------|------------------|------------------|------------------|
--3---------------|--3---------------|--3---------------|--3---------------|
------------0--3--|------------0--3--|------------0--3--|------------0--3--|
-------1----------|-------1----------|-------1----------|-------1----------|
------------------|------------------|------------------|------------------|

Cm
------------------|------------------|------------------|------------------|
--1---------------|--1---------------|--1---------------|--1---------------|
---------------0--|---------------0--|---------------0--|---------------0--|
------------1-----|------------1-----|------------1-----|------------1-----|
-------3----------|-------3----------|-------3----------|-------3----------|
------------------|------------------|------------------|------------------|

PART TWO: x2

G# D#
------------------|------------------|------------------|------------------|
------------------|------------------|--4---------------|--4---------------|
--1---------------|--1---------------|------------0--3--|------------0--3--|
---------------1--|---------------1--|-------1----------|-------1----------|
------------3-----|------------3-----|------------------|------------------|
-------4----------|-------4----------|------------------|------------------|

Fm Cm
--1---------------|--1---------------|------------------|------------------|
---------------1--|---------------1--|--1---------------|--1---------------|
------------1-----|------------1-----|---------------0--|---------------0--|
-------3----------|-------3----------|------------1-----|------------1-----|
------------------|------------------|-------3----------|-------3----------|
------------------|------------------|------------------|------------------|

G# Fm7 G
------------------|------------------|------------------|------------------|
------------------|------------------|------------------|------------------|
--1---------------|--1---------------|------------------|------------------|
---------------1--|---------------1--|--1---------------|--3------------0--|
------------3-----|------------3-----|---------------3--|------------2-----|
-------4----------|-------4----------|-------1----4-----|-------3----------|

Cm
------------------|------------------|------------------|------------------|
--1---------------|--1---------------|--1---------------|--1---------------|
---------------0--|---------------0--|---------------0--|---------------0--|
------------1-----|------------1-----|------------1-----|------------1-----|
-------3----------|-------3----------|-------3----------|-------3----------|
------------------|------------------|------------------|------------------|

OUTRO: x2

Cm
--------------------------|--------------------------|
--(1)---------------------|--(1)---------------------|
---------------------(0)--|---------------------(0)--|
----------------(1)-------|----------------(1)-------|
---------(3)--------------|---------(3)--------------|
--------------------------|--------------------------|

Аккорды:

INTRO: Cm / Cm / Cm / Cm
Cm / Cm / Cm / Cm

PART ONE: Cm / Cm / Cm / Cm
A Gm / Gm / Gm / Gm
A# / A# / A# / A#
Fm / Fm / Fm / Fm

PART ONE: Cm / Cm / Cm / Cm
B Gm / Gm / Gm / Gm
x2 A# / A# / A# / A#
Cm / Cm / Cm / Cm

PART TWO: G# / G# / D# / D#
x2 Fm / Fm / Cm / Cm
G# / G# / Fm7/ G
Cm / Cm / Cm / Cm


запись создана: 01.08.2011 в 08:09

@темы: Табы, Ответ на Запрос, Звуковой Пример, Аккорды, Айрэ и Саруман

Комментарии
2012-07-25 в 18:50 

.Ллойд
Делай что должен, и будь как будет.(с)
2012-07-25 в 22:33 

Lindford
Сварливая задница
.Ллойд, спасибо

     

Аккорды для Гитары

главная