00:05 

Бумбокс - Квіти в волоссі

Котярсис
верните меч, коня и латы, мой замок тянущийся ввысь, а кто там ржет в углу палаты - заткнись
Ответ на запрос morning jazz


E||-------------------------|------------------------|
H||-------------------------|----------------7-------|
G||*------------------------|-------------------7----|
D||*-----4-----0-------4-- |-----4-----0-----------|
A||---2-----2-------2------|--1-----1--------------|
E||------------------------- |------------------------|

------------------------|----------------12--------|
------------------------|--------------------12----|
------------------------|--------------------------|
-----4-----0-------4----|-----4-----0--------------|
--0-----0-------0-------|--------------------------|
------------------------|--3-----3-----------------|

------------------------|----------------------7--|
------------------------|----------------7--------|
------------------------|-------------------7-----|
-----4-----0-------4----|-----4-----0-------------|
--2-----2-------2-------|--1-----1----------------|
------------------------|-------------------------|
2x
------------------------|----------------12---------||
------------------------|--------------------12-----||
------------------------|--------------------------*||
-----4-----0-------4----|-----4-----0--------------*||
--0-----0-------0-------|---------------------------||
------------------------|--3-----3------------------||

---------------------------|--------------------------|
---------2h3------2h3------|--------2--------------3--|
*-----4---------------4----|-----4-----4-----4--------|
*--------------------------|--------------------------|
---2-----------0-----------|--------------------------|
---------------------------|--4-----------3-----2-----|
l.
---------------------------|---------------------------||
--------2h3------2h3-5-----|--------3--------3-----2---||
-----4------------------4--|-----4-----4--------------*||
---------------------------|--------------------------*||
--2-----------0------------|---------------------------||
---------------------------|--4-----------3-----2------||

Вступ: Hm/H Hm/A# Hm/A Hm/G (x2)

Hm/H
Вона носила квіти в волоссі
Hm/A#
І ними грався він і ще вітер
Hm/A
Здавалося давно вже дорослі
Hm/G
Але кохали щиро мов діти

Відчинені серця щирі очі
Таких не так багато є в світі
Лилися сльози щастя щоночі
Обіцянки назавжди любити

Будиночок на розі двох вулиць
Паркан плющем осіннім завитий
Здавалося дощі схаменулись
Здавалося завжди буде літо

Лише один дзвінок телефону
І варто тільки їм захотіти
Повіяло теплом з-за кордону
А отже неодмінно летіти

Приспів:
Hm/H Hm/A
Не обіцяй назавжди
Hm/G# Hm/G Hm/F# ...
Не обіцяй навічно
Де твоє моє завтра
У скронях вітер свище
Не обіцяй навіщо
Не обіцяй не треба
Залежить час найближчий
Та не завжди від тебе

І раптом все змінилось навколо
Проблеми ціни сни сподівання
Роз'їхалися як діти в школу
Що першим було стало останнім

Їй у Варшавські спальні райони
Йому Москву бетоном залити
Але кохання у таксофонах
Приречене не довго прожити

Куди ведуть строкаті дороги
Чому ви заблукали у світі
Вас сотні тисячі вас мільйони
В Ізраїлі Канаді на Кріті

Є спогади про те як було все
Надії є на те як все буде
Нас доля стрімко течією несе
Бо ми є не титани ми люди

Приспів.

Вона носила квіти в волоссі
І ними грався він і ще вітер
Здавалося давно вже дорослі
Але кохали щиро мов діти


@темы: Ответ на Запрос, Бумбокс, Табы

Комментарии
2009-05-07 в 17:39 

Почему везде только табы? Дайте табы, пожалуйста!

URL
2009-05-07 в 17:40 

я хотела сказать аккорды

URL
2009-05-08 в 00:04 

Yarda
....Ик....
Вступ: Hm/H Hm/A# Hm/A Hm/G (x2)

Hm/H
Вона носила квіти в волоссі
Hm/A#
І ними грався він і ще вітер
Hm/A
Здавалося давно вже дорослі
Hm/G
Але кохали щиро мов діти

Відчинені серця щирі очі
Таких не так багато є в світі
Лилися сльози щастя щоночі
Обіцянки назавжди любити

Будиночок на розі двох вулиць
Паркан плющем осіннім завитий
Здавалося дощі схаменулись
Здавалося завжди буде літо

Лише один дзвінок телефону
І варто тільки їм захотіти
Повіяло теплом з-за кордону
А отже неодмінно летіти

Приспів:
Hm/H Hm/A
Не обіцяй назавжди
Hm/G# Hm/G Hm/F# ...
Не обіцяй навічно
Де твоє моє завтра
У скронях вітер свище
Не обіцяй навіщо
Не обіцяй не треба
Залежить час найближчий
Та не завжди від тебе

І раптом все змінилось навколо
Проблеми ціни сни сподівання
Роз'їхалися як діти в школу
Що першим було стало останнім

Їй у Варшавські спальні райони
Йому Москву бетоном залити
Але кохання у таксофонах
Приречене не довго прожити

Куди ведуть строкаті дороги
Чому ви заблукали у світі
Вас сотні тисячі вас мільйони
В Ізраїлі Канаді на Кріті

Є спогади про те як було все
Надії є на те як все буде
Нас доля стрімко течією несе
Бо ми є не титани ми люди

Приспів.

Вона носила квіти в волоссі
І ними грався він і ще вітер
Здавалося давно вже дорослі
Але кохали щиро мов діти

-----------------------------
Табулатура основної теми,
адаптована для однієї 6-струнної гітари
Автор: bohdanko (pisni.org.ua)
Доповнив: shandor (pisni.org.ua)


2009-05-23 в 21:26 

:sunny:Спасибо! :vv:

URL
2009-05-30 в 15:36 

Чому ніхто не зніме другий куплет? А?
Дайте таби другого куплету!!!

URL
2009-06-13 в 18:25 

2-й куплет

І раптом все Проблеми, Роз'їхалися Що перше було
змінилось ціни, сни, як стало останнім
навколо сподівання діти в школу

---------2-----2-------2-----2-------5-----2-------2-----2------
-----3-----3-------3-----3-------3-----3---------3---3----------
-------4-----4-------4-----4-------4-----4-----4-------4--------
----------------------------------------------------------------
---2-------------1-------------0--------------------------------
---------------------------------------------3------------------


Їй у Варшавські Йому Москву Але кохання приречене не
спальні бетоном у таксофонах довго прожити
райони залити

---------2-----2-------2-----2-------5-----2-------2-----2------
-----3-----3-------3-----3-------3-----3---------3---3----------
-------4-----4-------4-----4-------4-----4-----4-------4--------
----------------------------------------------------------------
---2-------------1-------------0--------------------------------
---------------------------------------------3------------------

URL
2009-06-13 в 18:26 

Куди ведуть Чому ви Вас сотні В Ізраїлі,
строкаті дороги заблукали у тисячі, вас Канаді, на
світі мільйони Криті

---------2---2h3h2-------2---2h3h2-------5---2---------2-----2---
-----3---------------3---------------3-----3---------3---3-------
-------4---4-----------4---4-----------4-------4---4-------4-----
-----------------------------------------------------------------
---2---------------1---------------0-----------------------------
-------------------------------------------------3---------------


Є спрогади Надія є на Нас доля Бо ми є не
про те, як було те, яе все стрімко титани -
все буде течією несе ми люди

---------2---2h3h2-------2---2h3h2-------5---2---------2-0-------
-----3---------------3---------------3-----3---------3-----2h3h2-
-------4---4-----------4---4-----------4-------4---4-------------
-----------------------------------------------------------------
---2---------------1---------------0-----------------------------
-------------------------------------------------3---------------

Gashkek

URL
2009-06-13 в 18:27 

поубирало пробелы в тексте, но ничего, думаю разберетесь.
gashkek

URL
2009-07-28 в 14:39 

Основная тема не совсем правильно, там где идет последний оборот- в басу не G а G#, тоесть вместо 3 лада надо играть 4-й

URL
   

Аккорды для Гитары

главная