Yarda
....Ик....
Ответ на запроc Тайлин

E||------------------------||-------------3--2--0--|----------------------|
B||--0--0--0--0--0--0--||---0--0--0------------|--0-------------------|
G||--0--------2----------||*--0-------------------|-----0--0-----2--2--|
D||--2--------1----------||*--2-------------------|-----2--2-----1--1--|
A||-----------------------||------------------------|-----------------------|
E||--0--------2----------||---3-------------------|--0--------0----------|



----------------------|------------------------|------------7--5--3--|
----------------------|--3--3--3--3--3--3--|--3--3--3------------|
-----0--0-----2--2--|--4--------5----------|--0-------------------|
-----2--2-----1--1--|--0--------4----------|--0-------------------|
----------------------|------------0----------|--2-------------------|
--3--------2---------|--3--------------------|----------------------|



-----------------------|-----------------------|--2--2--2--2--2--2---||
--3-------------------|-----3--3-------------|--0---------------------||
-----4--4-----5--5--|-----0--0-------------|--2--------------------*||
-----0--0-----4--4--|-----------------------|-------------1---------*||
------------0---------|--2--------3--2--0--|--2---------------------||
--3-------------------|-----------------------|------------------------||



--2--2--2--5--3--2--|--0--------------0--|-----------------------|
--0--------------------|-----1--1-----3---- |--3-------------------|
--2--------------------|-----0--0-----------|------1--1-----1--1--|
-----------------------|----------------------|------2--2-----2--2--|
--2--------------------|--3--------2--------|-------------2---------|
------------------------|---------------------|--0--------------------|



------------------------|-----------------------|--0--------------------0--3--|
--1--1--1--1--3--1--|--0--0--0--0--2--4--|-----0--0-----------0--------|
-----------------------|------------------------|-----0--0--------0-----------|
-------------2---------|-----------------------|---------------2--------------|
--0--------------------|--2--------------------|------------2----------------|
------------------------|-----------------------|--0--------------------------|


|---7-----3--0-----3--|-----------------------|--5-----2-----0--2--|
|------0---------0-----|--1-------------------|-----------------------|
|*-----0---------0-----|-----2--2--2--1--0--|-----5----------------|
|*----------------------|-----2--2-------------|-----4----------------|
|-------------2--------|---0-------------------|--5--------0---------|
|---0------------------|------------------------|----------------------|



--0------------------|--3-----2--0-----3--|---------------------|
--------3------------|-----0--------0------|--1------------------|
-----0---------------|-----0--------0------|-----2--2------------|
-----0---------------|----------------------|-----2--2------------|
----------------------|------------2--------|--0--------0--2--3--|
--3--------3--2--1--|--0------------------|----------------------|



----------------------|--2-----0--------------||--2-----0-----|-------||
--0-----0--2-----4--|-----0---------0--0---||-----0---------|-------||
-----2--------2------|-----0---------0--0--*||-----0-----2---|-------||
-----1--------1------|-----------------------*||----------------|-------||
--2-------------------|------------2----------||----------------|-------||
----------------------|--0---------------------||--0------------|-------||


@темы: Ответ на Запрос, Визбор, Табы