19:45 

Уровень жизни - Прости

M_O_O_N
Ответ на запрос M_O_O_N

Am F
Мне хочется плакать, мне хочется выть,
C G
Я начал понимать, что не могу тебя забыть.
Ты ушла от меня, захлопнув дверь за собой,
Мне страшно одному и я хочу быть с тобой.

Мне страшно одному, мне страшно без тебя,
Мне нет пути назад, прости же меня.
Мне страшно одному, мне страшно без тебя,
Мне нет пути назад, прости же меня.

Ты мне снишься по ночам, я не могу закрыть глаза,
Но когда тебя я вспомню, по щеке течёт слеза,
Твое лицо я снова вижу, снова слышу голос твой,
Проснувшись, понимаю, что хочу быть с тобой.

Я хочу быть с тобой, я хочу обнять тебя,
Но это все лишь мечты, прости же меня.
Я хочу быть с тобой, но забываю тебя,
Но это все лишь мечты, прости же меня.

Я хочу быть с тобой, но теряю тебя,
И это все лишь мечты, прости же меня.

------------------------------------------------------------------------------
Начало можно сыграть примерно вот так вот:

флажолеты (2 раза):
1|-----12-------12--------|
2|------------------12-----|
3|-----------------------12|
4|--------------------------|
5|-12-----12--------------|

4 раза:
1|------0---------|
2|-0-------0---0-|
3|----5------5----|

Вступает вторая гитара:

Asus2 Fmaj7 C G6
(...............)

Asus2 Fmaj7 C G6
1|---------0--|---------0--|---------0---|------------|
2|-----0h1---|-----0h1---|-----0h1---|-3-1-3--0-|
3|---2--------|---2--------|---0---------|------------|
4|------------ |-3----------|-------------|------------|
5|-0----------|-------------|-3----------|------------|
6|----------- -|-------------|-------------|------------|

0h1 - восходящее легато, дергаешь открытую струну и резко прижимаешь струну на первом ладу


@темы: Ответ на Запрос, Аккорды, Табы, Уровень Жизни

Комментарии
2009-06-20 в 19:48 

Yarda
....Ик....
Тут были? pesen.ru/publ/2-1-0-391

2009-06-20 в 19:49 

M_O_O_N
Yarda Да... к сожелению там была... но мне хочется найти именно пройгрыши....просто они очень красивые.... там вроде даже две гитары....

2009-06-20 в 19:51 

Yarda
....Ик....
Тогда составляйте лучше свой запрос
Есть только слава.... помогите, пожалуйсто, найти какие-нибудь аккорды, табы или ноты...
будем искать

2009-06-20 в 19:55 

M_O_O_N
Yarda Ок..... исправим:))...

2009-06-20 в 19:57 

Yarda
....Ик....
А тут были? soundg.ucoz.ru/load/1-1-0-133

2009-06-20 в 20:00 

M_O_O_N
Yarda А там не была:))... Пасиб:)))

2009-06-20 в 20:05 

Yarda
....Ик....
M_O_O_N Если это то что надо, то я оформлю ответ

2009-06-20 в 20:09 

M_O_O_N
ок:)).... Ещё раз спасибо:)))

   

Аккорды для Гитары

главная